Music can change the world because it can change people.

— Bono
Guitar lessons and guitar tuition

Learn to play the guitar just like you've always dreamed of..

I hope my videos, articles and tabs inspire you to become the guitarist you've always wanted to be. Whether you're picking up a guitar for the first time or you're an accomplished guitarist already, get in touch and let me help you achieve your aspirations.

Radioactive – Imagine Dragons -TAB

Radioactive Imagine Dragons Guitar TAB arranged and transcribed by Nathan Cragg

 As recorded by Nathan Cragg at http://www.youtube.com/watch?v=t_CZdV9H-s0

Transcribed by Nathan Cragg
 
Arranged by Nathan Cragg 

Gtr I (D A D G B E) - 'Radioactive by Imagine dragons' CAPO on 1st or 2nd Fret (you choose)

 4/4
  Gtr I
  E E E E E E E E   E E E E E E Q    E E E E E E E E   E E E E E E Q
|-----------------|-------0--------|-----------------|-----------------|
|-------1-------3-|-------------3--|---------------3-|-------1---------|
|-2p0-2-----0-2---|-2p0-2-----2----|-2p0-2-5---0-2---|-2p0-2-----0-2---|
|-----------------|----------------|-----------------|-----------------|
|-0-------0-------|-3-------3------|-----------------|-0-------0-------|
|-----------------|----------------|-5-------5-------|-----------------|
  H       H         H       H        H       H         H       H


  E E E E E E E E   E E E E E E Q    E E E E E E E E   E E E E E E Q
|-----------------|-------0--------|-----------------|----------------|
|-------1-------3-|-------------3--|---------------3-|-------1--------|
|-2p0-2-----0-2---|-2p0-2-----2----|-2p0-2-5---0-2---|-2p0-2-----0-2--|
|-----------------|----------------|-----------------|----------------|
|-0-------0-------|-3-------3------|-----------------|-0-------0------|
|-----------------|----------------|-5-------5-------|----------------|
  H       H         H       H        H       H         H       H


|-----------|-------------|---------|
|-^1--------|-^(1)--------|-^(1)----|
|-^2--------|-^(2)--------|-^(2)----|
|-^2--------|-^(2)--------|-^(2)----|
|-^0--------|-^(0)--------|-^(0)----|
|-----------|-------------|---------|
   W           +W            +W


  Q  E E E E E E   Q  E E E E E E   Q  E E Q  E E   E E E E E E E E
|--------0---0---|--------0---0---|---------------|-----------------|
|--------------3-|--------------3-|--------0--0---|-1---0---1---0---|
|----------2-----|----------0-----|-------------0-|-------2-------0-|
|------2---------|------2---------|------0--------|---0-------0-----|
|-0--0-----------|-3--3-----------|---------------|-----------------|
|----------------|----------------|-5--5----------|-0---------------|
                                                    W


  Q  E E E E E E   Q  E E E E E E   Q  H     E E   Q.   S S E E E E
|--------0---0---|----------------|--------------|----------------0--|
|--------------3-|----------------|---------^0---|------------3------|
|----------2-----|--------0-0-0---|---------^0-2-|----------2--------|
|------2---------|------2-------0-|---------^0---|------2S4-----4----|
|-0--0-----------|-3--3-----------|--------------|-------------------|
|----------------|----------------|-5--5---------|-0-----------------|
                                                   W


  Q  E E E E E E   Q  E E E E E E   Q  E E Q  E E   E E E E E E E E
|--------0---0---|--------0---0---|---------------|-----------------|
|--------------3-|--------------3-|--------0--0---|-1---0---1---0---|
|----------2-----|----------0-----|-------------0-|-------2-------0-|
|------2---------|------2---------|------0--------|---0-------0-----|
|-0--0-----------|-3--3-----------|---------------|-----------------|
|----------------|----------------|-5--5----------|-0---------------|
                                                    W


  Q  E E E E E E   Q  E E E E E E   Q  H     E E   +Q   Q  Q  Q
|--------0---0---|----------------|--------------|---------------|
|--------------3-|----------------|---------^0---|---------------|
|----------2-----|--------0-0-0---|---------^0-2-|-(2)--2--2-----|
|------2---------|------2-------0-|---------^0---|------------7--|
|-0--0-----------|-3--3-----------|--------------|---------------|
|----------------|----------------|-5--5---------|---------------|


  Q  Q   Q  E E   Q  Q   Q  Q    Q  Q   Q  E E   Q  E E Q  Q
|----5--^5--5---|-3--3--^0-----|----3--^3--3---|-2--2---------|
|-------^5------|-------^1--1--|-------^0------|--------3-----|
|-------^5------|-------^0-----|-0-----^0------|--------2-----|
|-7-----^7----0-|-------^2-----|-------^0----0-|------0----0--|
|-0-------------|-3------------|---------------|--------------|
|---------------|--------------|-5-------------|-0------------|
                                                 W


  E E E E Q  Q    Q  E E Q  Q    E E E E Q  Q    Q  E E Q  Q
|-0---0---0-----|----0---0-----|-0---0---0-----|--------------|
|---3---3-------|------3-------|---3---3-------|-----------1--|
|------------2--|-----------2--|------------2--|----2-2-2-----|
|---------------|--------------|---------------|--------------|
|-0-------------|-3------------|---------------|--------------|
|---------------|--------------|-5-------------|-4------------|
  W               W              W               W


  E E E E E E E E   E E E E E E E E   E E E E  Q  E E   E E E E  Q  E E
|---0-------------|---0-------------|---3-3-3-^3--2---|---2-2-2-^2--0---|
|-----3p1-3-----1-|-----3p1-3-------|---------^0------|---------^3------|
|-------------2---|-------------0---|---------^0------|---------^2------|
|-----------2-----|-----------2---0-|---------^0----0-|---------^0----0-|
|-0---------------|-3---------------|-----------------|-----------------|
|-----------------|-----------------|-5---------------|-0---------------|
  W                 W                 W                 W


  E E E E E E E E   E E E E E E E E   E E E E  Q  E E   E E E E  Q  E E
|---0-------------|---0-------------|---3-3-3-^3--2---|---2-2-2-^2--0---|
|-----3p1-3-----1-|-----3p1-3-------|---------^0------|---------^3------|
|-------------2---|-------------0---|---------^0------|---------^2------|
|-----------2-----|-----------2---0-|---------^0----0-|---------^0----0-|
|-0---------------|-3---------------|-----------------|-----------------|
|-----------------|-----------------|-5---------------|-0---------------|
  W                 W                 W                 W


  Q  E E E E E E   Q  E E E E E E   Q  E E Q  E E   E E E E E E E E
|--------0---0---|--------0---0---|---------------|-----------------|
|--------------3-|--------------3-|--------0--0---|-1---0---1---0---|
|----------2-----|----------0-----|-------------0-|-------2-------0-|
|------2---------|------2---------|------0--------|---0-------0-----|
|-0--0-----------|-3--3-----------|---------------|-----------------|
|----------------|----------------|-5--5----------|-0---------------|
                                                    W


  Q  E E E E E E   Q  E E E E E E   Q  H     E E   Q.   S S E E E E
|--------0---0---|----------------|--------------|----------------0--|
|--------------3-|----------------|---------^0---|------------3------|
|----------2-----|--------0-0-0---|---------^0-2-|----------2--------|
|------2---------|------2-------0-|---------^0---|------2S4-----4----|
|-0--0-----------|-3--3-----------|--------------|-------------------|
|----------------|----------------|-5--5---------|-0-----------------|
                                                   W


  Q  E E E E E E   Q  E E E E E E   Q  E E Q  E E   E E E E E E E E
|--------0---0---|--------0---0---|---------------|-----------------|
|--------------3-|--------------3-|--------0--0---|-1---0---1---0---|
|----------2-----|----------0-----|-------------0-|-------2-------0-|
|------2---------|------2---------|------0--------|---0-------0-----|
|-0--0-----------|-3--3-----------|---------------|-----------------|
|----------------|----------------|-5--5----------|-0---------------|
                                                    W


  Q  E E E E E E   Q  E E E E E E   Q  H     E E   +Q   Q  Q  Q
|--------0---0---|----------------|--------------|---------------|
|--------------3-|----------------|---------^0---|---------------|
|----------2-----|--------0-0-0---|---------^0-2-|-(2)--2--2-----|
|------2---------|------2-------0-|---------^0---|------------7--|
|-0--0-----------|-3--3-----------|--------------|---------------|
|----------------|----------------|-5--5---------|---------------|


  Q  Q   Q  E E   Q  Q   Q  Q    Q  Q   Q  E E   Q  E E Q  Q
|----5--^5--5---|-3--3--^0-----|----3--^3--3---|-2--2---------|
|-------^5------|-------^1--1--|-------^0------|--------3-----|
|-------^5------|-------^0-----|-0-----^0------|--------2-----|
|-7-----^7----0-|-------^2-----|-------^0----0-|------0----0--|
|-0-------------|-3------------|---------------|--------------|
|---------------|--------------|-5-------------|-0------------|
  W                                              W


  E E E E Q  Q    Q  E E Q  Q    E E E E Q  Q    Q  E E Q  Q
|-0---0---0-----|----0---0-----|-0---0---0-----|--------------|
|---3---3-------|------3-------|---3---3-------|-----------1--|
|------------2--|-----------2--|------------2--|----2-2-2-----|
|---------------|--------------|---------------|--------------|
|-0-------------|-3------------|---------------|--------------|
|---------------|--------------|-5-------------|-4------------|
  W               W              W               W


  E E E E E E E E   E E E E E E E E   E E E E  Q  E E   E E E E  Q  E E
|---0-------------|---0-------------|---3-3-3-^3--2---|---2-2-2-^2--0---|
|-----3p1-3-----1-|-----3p1-3-------|---------^0------|---------^3------|
|-------------2---|-------------0---|---------^0------|---------^2------|
|-----------2-----|-----------2---0-|---------^0----0-|---------^0----0-|
|-0---------------|-3---------------|-----------------|-----------------|
|-----------------|-----------------|-5---------------|-0---------------|
  W                 W                 W                 W


  E E E E E E E E   E E E E E E E E   E E E E  Q  E E   E E E E  Q  Q
|---0-------------|---0-------------|---3-3-3-^3--2---|---2-2-2-^2--0--|
|-----3p1-3-----1-|-----3p1-3-------|---------^0------|---------^3-----|
|-------------2---|-------------0---|---------^0------|---------^2-----|
|-----------2-----|-----------2---0-|---------^0----0-|---------^0-----|
|-0---------------|-3---------------|-----------------|----------------|
|-----------------|-----------------|-5---------------|-0--------------|
  W                 W                 W                 W


  Q  Q  E Q  E   +Q   Q  Q  Q    Q  Q  E Q  E   Q.  S S E E E E
|--------------|---------------|--------------|---------------0-|
|-1-----1-3--0-|-(0)-----------|-0-----0------|-----------3-----|
|-2-----2------|---------0-----|-------0-2--0-|-2-------2-------|
|----2---------|------2-----2--|----0---------|-----2S4-----4---|
|-0------------|--3------------|--------------|-----------------|
|--------------|---------------|-5------------|-0---------------|
  W               W              W              W


  Q  Q  E Q  E   +Q   Q  Q  Q    Q  Q  Q.   E    Q   Q  Q  Q
|--------------|---------------|--------------|----------------|
|-1-----1-3--0-|-(0)-----------|-0-----0------|----------------|
|-2-----2------|---------0-----|-------0----2-|-^2-------------|
|----2---------|------2-----2--|----0---------|-^0---7--7--7---|
|-0------------|--3------------|--------------|----------------|
|--------------|---------------|-5------------|--0-------------|
  W               W              W               W


  Q  Q   Q  E E   Q  Q   Q E E   Q  Q   Q  E E   Q  E E Q  Q
|----5--^5--5---|-3--3--^0-----|----3--^3--3---|-2--2----------|
|-------^5------|-------^1-1---|-------^0------|--------3------|
|-------^5------|-------^0---0-|-0-----^0------|--------2------|
|-7-----^7----0-|-------^2-----|-------^0----0-|------0----0---|
|-0-------------|-3------------|---------------|---------------|
|---------------|--------------|-5-------------|-0-------------|
  W               W                              W


  E E E E Q  Q    Q  E E Q  Q    E E E E Q  Q    Q  E E Q  Q
|-0---0---0-----|----0---0-----|-0---0---0-----|--------------|
|---3---3-------|------3-------|---3---3-------|-----------1--|
|------------2--|-----------2--|------------2--|----2-2-2-----|
|---------------|--------------|---------------|--------------|
|-0-------------|-3------------|---------------|--------------|
|---------------|--------------|-5-------------|-4------------|
  W               W              W               W


  E E E E E E E E   E E E E E E E E   E E E E  Q  E E   E E E E  Q  E E
|---0-------------|---0-------------|---3-3-3-^3--2---|---2-2-2-^2--0---|
|-----3p1-3-----1-|-----3p1-3-------|---------^0------|---------^3------|
|-------------2---|-------------0---|---------^0------|---------^2------|
|-----------2-----|-----------2---0-|---------^0----0-|---------^0----0-|
|-0---------------|-3---------------|-----------------|-----------------|
|-----------------|-----------------|-5---------------|-0---------------|
  W                 W                 W                 W


  E E E E E E E E   E E E E E E E E   E E E E  Q  E E   E E E E  Q   Q
|---0-------------|---0-------------|---3-3-3-^3--2---|---2-2-2-^2--^0--|
|-----3-1-3-----1-|-----3-1-3-------|---------^0------|---------^3--^3--|
|-------------2---|-------------0---|---------^0------|---------^2--^2--|
|-----------2-----|-----------2---0-|---------^0----0-|---------^0--^0--|
|-0---------------|-3---------------|-----------------|-----------------|
|-----------------|-----------------|-5---------------|-0--------0------|
  W                 W                 W                 H        H




--------------------------------------------------------------------------------


Duration Legend
---------------
W - whole; H - half; Q - quarter; E - 8th; S - 16th; T - 32nd; X - 64th; a - acciaccatura
+ - note tied to previous; . - note dotted; .. - note double dotted
Uncapitalized letters represent notes that are staccato (1/2 duration)
Irregular groupings are notated above the duration line
Duration letters will always appear directly above the note/fret number it represents the
duration for.  Duration letters with no fret number below them represent rests.  Multi-
bar rests are notated in the form Wxn, where n is the number of bars to rest for.  Low
melody durations appear below the staff

Tablature Legend
----------------
 h   - hammer-on
 p   - pull-off
 b   - bend
 pb  - pre-bend
 r   - bend release (if no number after the r, then release immediately)
 /\  - slide into or out of (from/to "nowhere")
 s   - legato slide
 S   - shift slide
 - natural harmonic
[n]  - artificial harmonic
n(n) - tapped harmonic
 ~   - vibrato
 tr  - trill
 T   - tap
 TP  - trem. picking
 PM  - palm muting
\n/  - tremolo bar dip; n = amount to dip
 \n  - tremolo bar down
 n/  - tremolo bar up
/n\  - tremolo bar inverted dip
 =   - hold bend; also acts as connecting device for hammers/pulls
 <> - volume swell (louder/softer)
 x   - on rhythm slash represents muted slash
 o   - on rhythm slash represents single note slash

Misc Legend
-----------
 |  - bar
||  - double bar
||o - repeat start
o|| - repeat end
*|  - double bar (ending)
 :  - bar (freetime)
 $  - Segno
 &  - Coda
Tempo markers -  = BPM(8/16=s8/s16), where s8 = swing 8ths, s16 = swing 16ths
24. May 2017

Tweet Tweet To determine treatment success. After surgery or radiation, the PSA level can be monitored to help determine if treatm [...]

Read more
24. May 2017

Tweet Tweet Que mucha gente valore ms el frasco de alabastro que el ungento. De la misma manera, muchos piensan que su hombre exte [...]

Read more
24. May 2017

Tweet Tweet Pinner told Perez that he had been towed out to sea for the past 45 minutes and that the beast was showing no signs of [...]

Read more